A B C D E F G H I J K L M N O P Q R S T U V W X Y Z

Syota Ng Bayan by Grin Department


Guitar Chords, Tabs, and or Lyrics Provided Below:



Song:Syota ng Bayan
Artist:Grin Department
Date Tabbed:May,2007
Guitar Tabber:Ryan Manongdo/17/m/Montalban Rizal
              no_falter0x@yahoo.com(Friendster&YM)
              
For your questions or suggestions,just PM or Text me!!
Please Rate...

Gtr.Legends:
~ - ring
/ - slide

Gtr.Tuning:Standard(Normal)

Intro:
e|----2-------2-----------------------2---------2-------2------------------|
B|------------------------5------------------------------------------------|
G|---------------------------------------4--------4------------------------|
D|---------------4-----------4----------------------------4-22222-44444~---|
A|-2~-----------------------------2~---------2~-------------22222-44444~---|
E|--------2~----------0~-----------------------------2~-----00000-22222~---|

Verse:Kaibigan balita ko...
e|----2-------2-----------------------2---------2-------2-----------------2----      ----------------|
B|------------------------5--------------------------------------5------------- 2x   ----------------|
G|---------------------------------------4--------4---------------------------- Then -----44444444---|
D|------4--------4-----------4----------------------------4--------4--------4--      -222-44444444---|
A|-2~-----------------------------2~---------2~------------------------2-------      -222-22222222---|
E|---------2~---------0~-----------------------------2~-------0~---------------      -000------------|

Ang yabang mong pumorma...
e|------------------------|
B|------------------------|
G|-4444-----------44444---| 4x
D|-4444-4444-2222-44444---|
A|-2222-4444-2222-22222---|
E|------2222-0000---------|

Pre-Chorus:At pag-dating ng gabi...
e|--------------      --------------|
B|--------------      --------------|
G|-------------- 3x   --------------|
D|-22222-44444-- Then -2~--444444---|
A|-22222-44444--      -2~--444444---|
E|-00000-22222--      -0~--222222---|

Chorus:Syota mo ay syota nya...
e|---------------------------------------------|
B|---------------------------------------------|
G|-4444------------------4444-----------4444---|
D|-4444-4444-2222-4444---4444-4444-2222-4444---|
A|-2222-4444-2222-4444---2222-4444-2222-2222---|
E|------2222-0000-2222--------2222-0000--------|

Bridge:Lalalalala...
Gtr.1:Play Chorus 2x

Gtr.2
e|-77--------------------777/9-----9-9/12-1111--9-9/11b---77--------------------777/9-------------4-2----------|
B|----7777-55-7/9-7-5-7--------777---------------------------7777-55-7/9-7-5-7--------7-5-7-5~--5-----5-5/7~---|
G|-------------------------------------------------------------------------------------------------------------|
D|-------------------------------------------------------------------------------------------------------------|
A|-------------------------------------------------------------------------------------------------------------|
E|-------------------------------------------------------------------------------------------------------------|

Repeat Verse:

Repeat Pre-Chorus:

Repeat Chorus

Last Chords
e|--------------------------------|
B|--------------------------------|
G|-----------------4~---444444~---|
D|-222222-444444~--4~---444444~---|
A|-222222-444444~--2~---222222~---|
E|-000000-222222~-----------------|

End...
				

Tabs are not available on mobile devices. Please use a laptop or desktop to view this tab.

Fret Daddy Featured Product
Fretboard Note Map

Still don't know the names of the notes? Buy the Fretboard Note Map and start getting serious about mastering the guitar.


You Pay $12.49
Free Shipping!

View all products